  0
SECTION
  2
HEADER
  9
$ACADVER
  1
AC1015
  9
$ACADMAINTVER
 70
     6
  9
$DWGCODEPAGE
  3
ANSI_1252
  9
$INSBASE
 10
-237.9195917531331
 20
23.74580947649823
 30
0.0
  9
$EXTMIN
 10
-285.2016510070804
 20
-73.26649350425416
 30
-0.0000000000000023
  9
$EXTMAX
 10
-62.85310823238722
 20
68.87265754224964
 30
0.0
  9
$LIMMIN
 10
0.0
 20
0.0
  9
$LIMMAX
 10
12.0
 20
9.0
  9
$ORTHOMODE
 70
     1
  9
$REGENMODE
 70
     1
  9
$FILLMODE
 70
     1
  9
$QTEXTMODE
 70
     0
  9
$MIRRTEXT
 70
     0
  9
$LTSCALE
 40
1.0
  9
$ATTMODE
 70
     1
  9
$TEXTSIZE
 40
0.2
  9
$TRACEWID
 40
0.05
  9
$TEXTSTYLE
  7
Standard
  9
$CLAYER
  8
0
  9
$CELTYPE
  6
ByLayer
  9
$CECOLOR
 62
   256
  9
$CELTSCALE
 40
1.0
  9
$DISPSILH
 70
     0
  9
$DIMSCALE
 40
1.0
  9
$DIMASZ
 40
0.18
  9
$DIMEXO
 40
0.0625
  9
$DIMDLI
 40
0.38
  9
$DIMRND
 40
0.0
  9
$DIMDLE
 40
0.0
  9
$DIMEXE
 40
0.18
  9
$DIMTP
 40
0.0
  9
$DIMTM
 40
0.0
  9
$DIMTXT
 40
0.18
  9
$DIMCEN
 40
0.09
  9
$DIMTSZ
 40
0.0
  9
$DIMTOL
 70
     0
  9
$DIMLIM
 70
     0
  9
$DIMTIH
 70
     1
  9
$DIMTOH
 70
     1
  9
$DIMSE1
 70
     0
  9
$DIMSE2
 70
     0
  9
$DIMTAD
 70
     0
  9
$DIMZIN
 70
     0
  9
$DIMBLK
  1

  9
$DIMASO
 70
     1
  9
$DIMSHO
 70
     1
  9
$DIMPOST
  1

  9
$DIMAPOST
  1

  9
$DIMALT
 70
     0
  9
$DIMALTD
 70
     2
  9
$DIMALTF
 40
25.4
  9
$DIMLFAC
 40
1.0
  9
$DIMTOFL
 70
     0
  9
$DIMTVP
 40
0.0
  9
$DIMTIX
 70
     0
  9
$DIMSOXD
 70
     0
  9
$DIMSAH
 70
     0
  9
$DIMBLK1
  1

  9
$DIMBLK2
  1

  9
$DIMSTYLE
  2
Standard
  9
$DIMCLRD
 70
     0
  9
$DIMCLRE
 70
     0
  9
$DIMCLRT
 70
     0
  9
$DIMTFAC
 40
1.0
  9
$DIMGAP
 40
0.09
  9
$DIMJUST
 70
     0
  9
$DIMSD1
 70
     0
  9
$DIMSD2
 70
     0
  9
$DIMTOLJ
 70
     1
  9
$DIMTZIN
 70
     0
  9
$DIMALTZ
 70
     0
  9
$DIMALTTZ
 70
     0
  9
$DIMUPT
 70
     0
  9
$DIMDEC
 70
     4
  9
$DIMTDEC
 70
     4
  9
$DIMALTU
 70
     2
  9
$DIMALTTD
 70
     2
  9
$DIMTXSTY
  7
Standard
  9
$DIMAUNIT
 70
     0
  9
$DIMADEC
 70
     0
  9
$DIMALTRND
 40
0.0
  9
$DIMAZIN
 70
     0
  9
$DIMDSEP
 70
    46
  9
$DIMATFIT
 70
     3
  9
$DIMFRAC
 70
     0
  9
$DIMLDRBLK
  1

  9
$DIMLUNIT
 70
     2
  9
$DIMLWD
 70
    -2
  9
$DIMLWE
 70
    -2
  9
$DIMTMOVE
 70
     0
  9
$LUNITS
 70
     2
  9
$LUPREC
 70
     4
  9
$SKETCHINC
 40
0.1
  9
$FILLETRAD
 40
0.25
  9
$AUNITS
 70
     0
  9
$AUPREC
 70
     0
  9
$MENU
  1
.
  9
$ELEVATION
 40
0.0
  9
$PELEVATION
 40
0.0
  9
$THICKNESS
 40
0.0
  9
$LIMCHECK
 70
     0
  9
$CHAMFERA
 40
0.0
  9
$CHAMFERB
 40
0.0
  9
$CHAMFERC
 40
0.0
  9
$CHAMFERD
 40
0.0
  9
$SKPOLY
 70
     0
  9
$TDCREATE
 40
2454608.616975995
  9
$TDUCREATE
 40
2454608.825309329
  9
$TDUPDATE
 40
2454749.340835209
  9
$TDUUPDATE
 40
2454749.549168542
  9
$TDINDWG
 40
1.3274902662
  9
$TDUSRTIMER
 40
1.3274902662
  9
$USRTIMER
 70
     1
  9
$ANGBASE
 50
0.0
  9
$ANGDIR
 70
     0
  9
$PDMODE
 70
     0
  9
$PDSIZE
 40
0.0
  9
$PLINEWID
 40
0.0
  9
$SPLFRAME
 70
     0
  9
$SPLINETYPE
 70
     6
  9
$SPLINESEGS
 70
     8
  9
$HANDSEED
  5
C2
  9
$SURFTAB1
 70
     6
  9
$SURFTAB2
 70
     6
  9
$SURFTYPE
 70
     6
  9
$SURFU
 70
     6
  9
$SURFV
 70
     6
  9
$UCSBASE
  2

  9
$UCSNAME
  2

  9
$UCSORG
 10
0.0
 20
0.0
 30
0.0
  9
$UCSXDIR
 10
1.0
 20
0.0
 30
0.0
  9
$UCSYDIR
 10
0.0
 20
1.0
 30
0.0
  9
$UCSORTHOREF
  2

  9
$UCSORTHOVIEW
 70
     0
  9
$UCSORGTOP
 10
0.0
 20
0.0
 30
0.0
  9
$UCSORGBOTTOM
 10
0.0
 20
0.0
 30
0.0
  9
$UCSORGLEFT
 10
0.0
 20
0.0
 30
0.0
  9
$UCSORGRIGHT
 10
0.0
 20
0.0
 30
0.0
  9
$UCSORGFRONT
 10
0.0
 20
0.0
 30
0.0
  9
$UCSORGBACK
 10
0.0
 20
0.0
 30
0.0
  9
$PUCSBASE
  2

  9
$PUCSNAME
  2

  9
$PUCSORG
 10
0.0
 20
0.0
 30
0.0
  9
$PUCSXDIR
 10
1.0
 20
0.0
 30
0.0
  9
$PUCSYDIR
 10
0.0
 20
1.0
 30
0.0
  9
$PUCSORTHOREF
  2

  9
$PUCSORTHOVIEW
 70
     0
  9
$PUCSORGTOP
 10
0.0
 20
0.0
 30
0.0
  9
$PUCSORGBOTTOM
 10
0.0
 20
0.0
 30
0.0
  9
$PUCSORGLEFT
 10
0.0
 20
0.0
 30
0.0
  9
$PUCSORGRIGHT
 10
0.0
 20
0.0
 30
0.0
  9
$PUCSORGFRONT
 10
0.0
 20
0.0
 30
0.0
  9
$PUCSORGBACK
 10
0.0
 20
0.0
 30
0.0
  9
$USERI1
 70
     0
  9
$USERI2
 70
     0
  9
$USERI3
 70
     0
  9
$USERI4
 70
     0
  9
$USERI5
 70
     0
  9
$USERR1
 40
0.0
  9
$USERR2
 40
0.0
  9
$USERR3
 40
0.0
  9
$USERR4
 40
0.0
  9
$USERR5
 40
0.0
  9
$WORLDVIEW
 70
     1
  9
$SHADEDGE
 70
     3
  9
$SHADEDIF
 70
    70
  9
$TILEMODE
 70
     1
  9
$MAXACTVP
 70
    64
  9
$PINSBASE
 10
0.0
 20
0.0
 30
0.0
  9
$PLIMCHECK
 70
     0
  9
$PEXTMIN
 10
0.0
 20
0.0
 30
0.0
  9
$PEXTMAX
 10
0.0
 20
0.0
 30
0.0
  9
$PLIMMIN
 10
0.0
 20
0.0
  9
$PLIMMAX
 10
12.0
 20
9.0
  9
$UNITMODE
 70
     0
  9
$VISRETAIN
 70
     1
  9
$PLINEGEN
 70
     0
  9
$PSLTSCALE
 70
     1
  9
$TREEDEPTH
 70
  3020
  9
$CMLSTYLE
  2
Standard
  9
$CMLJUST
 70
     0
  9
$CMLSCALE
 40
1.0
  9
$PROXYGRAPHICS
 70
     1
  9
$MEASUREMENT
 70
     0
  9
$CELWEIGHT
370
    -1
  9
$ENDCAPS
280
     0
  9
$JOINSTYLE
280
     0
  9
$LWDISPLAY
290
     0
  9
$INSUNITS
 70
     1
  9
$HYPERLINKBASE
  1

  9
$STYLESHEET
  1

  9
$XEDIT
290
     1
  9
$CEPSNTYPE
380
     0
  9
$PSTYLEMODE
290
     1
  9
$FINGERPRINTGUID
  2
{6C1BCA74-CD4D-4983-99CE-E5ED8BB9B51D}
  9
$VERSIONGUID
  2
{0860021D-7E47-4E8B-9CBF-8B35C9066C4F}
  9
$EXTNAMES
290
     1
  9
$PSVPSCALE
 40
0.0
  9
$OLESTARTUP
290
     0
  0
ENDSEC
  0
SECTION
  2
CLASSES
  0
CLASS
  1
ACDBDICTIONARYWDFLT
  2
AcDbDictionaryWithDefault
  3
ObjectDBX Classes
 90
        0
280
     0
281
     0
  0
CLASS
  1
ACDBPLACEHOLDER
  2
AcDbPlaceHolder
  3
ObjectDBX Classes
 90
        0
280
     0
281
     0
  0
CLASS
  1
LAYOUT
  2
AcDbLayout
  3
ObjectDBX Classes
 90
        0
280
     0
281
     0
  0
CLASS
  1
DICTIONARYVAR
  2
AcDbDictionaryVar
  3
ObjectDBX Classes
 90
        0
280
     0
281
     0
  0
CLASS
  1
TABLESTYLE
  2
AcDbTableStyle
  3
ObjectDBX Classes
 90
     2047
280
     0
281
     0
  0
CLASS
  1
MATERIAL
  2
AcDbMaterial
  3
ObjectDBX Classes
 90
        0
280
     0
281
     0
  0
CLASS
  1
VISUALSTYLE
  2
AcDbVisualStyle
  3
ObjectDBX Classes
 90
     4095
280
     1
281
     0
  0
CLASS
  1
SCALE
  2
AcDbScale
  3
ObjectDBX Classes
 90
     1153
280
     1
281
     0
  0
CLASS
  1
MLEADERSTYLE
  2
AcDbMLeaderStyle
  3
ACDB_MLEADERSTYLE_CLASS
 90
   -61441
280
     1
281
     0
  0
CLASS
  1
CELLSTYLEMAP
  2
AcDbCellStyleMap
  3
ObjectDBX Classes
 90
     1152
280
     1
281
     0
  0
CLASS
  1
SORTENTSTABLE
  2
AcDbSortentsTable
  3
ObjectDBX Classes
 90
        0
280
     0
281
     0
  0
CLASS
  1
SOLID_BACKGROUND
  2
AcDbSolidBackground
  3
SCENEOE
 90
   -61441
280
     1
281
     0
  0
CLASS
  1
NPOCOLLECTION
  2
AcDbImpNonPersistentObjectsCollection
  3
ObjectDBX Classes
 90
   -64383
280
     1
281
     0
  0
CLASS
  1
ACDB_MTEXTATTRIBUTEOBJECTCONTEXTDATA_CLASS
  2
AcDbMTextAttributeObjectContextData
  3
ObjectDBX Classes
 90
   -64383
280
     1
281
     0
  0
CLASS
  1
DIMASSOC
  2
AcDbDimAssoc
  3
"AcDbDimAssoc|Product Desc:     AcDim ARX App For Dimension|Company:          Autodesk, Inc.|WEB Address:      www.autodesk.com"
 90
        0
280
     0
281
     0
  0
ENDSEC
  0
SECTION
  2
TABLES
  0
TABLE
  2
VPORT
  5
29
330
0
100
AcDbSymbolTable
 70
     1
  0
VPORT
  5
2A
330
29
100
AcDbSymbolTableRecord
100
AcDbViewportTableRecord
  2
*Active
 70
     0
 10
0.0
 20
0.0
 11
1.0
 21
1.0
 12
-237.7565180225426
 22
15.51327452253267
 13
0.0
 23
0.0
 14
0.5
 24
0.5
 15
0.5
 25
0.5
 16
0.0
 26
0.0
 36
1.0
 17
0.0
 27
0.0
 37
0.0
 40
27.66806734624805
 41
2.01528384279476
 42
50.0
 43
0.0
 44
0.0
 50
0.0
 51
0.0
 71
     0
 72
  1000
 73
     1
 74
     2
 75
     0
 76
     0
 77
     0
 78
     0
281
     0
 65
     1
110
0.0
120
0.0
130
0.0
111
1.0
121
0.0
131
0.0
112
0.0
122
1.0
132
0.0
 79
     0
146
0.0
  0
ENDTAB
  0
TABLE
  2
LTYPE
  5
24
330
0
100
AcDbSymbolTable
 70
     2
  0
LTYPE
  5
25
330
24
100
AcDbSymbolTableRecord
100
AcDbLinetypeTableRecord
  2
ByBlock
 70
     0
  3

 72
    65
 73
     0
 40
0.0
  0
LTYPE
  5
26
330
24
100
AcDbSymbolTableRecord
100
AcDbLinetypeTableRecord
  2
ByLayer
 70
     0
  3

 72
    65
 73
     0
 40
0.0
  0
LTYPE
  5
14
330
24
100
AcDbSymbolTableRecord
100
AcDbLinetypeTableRecord
  2
Continuous
 70
     0
  3
Solid line
 72
    65
 73
     0
 40
0.0
  0
LTYPE
  5
60
330
24
100
AcDbSymbolTableRecord
100
AcDbLinetypeTableRecord
  2
HIDDEN
 70
     0
  3
_ _ _ _ _ _ _ _ _ _ _ _ _ _ _ _ _ _ _ _ _ _ _
 72
    65
 73
     2
 40
0.375
 49
0.25
 74
     0
 49
-0.125
 74
     0
  0
ENDTAB
  0
TABLE
  2
LAYER
  5
1C
102
{ACAD_XDICTIONARY
360
1D
102
}
330
0
100
AcDbSymbolTable
 70
     1
  0
LAYER
  5
6
102
{ACAD_XDICTIONARY
360
7
102
}
330
1C
100
AcDbSymbolTableRecord
100
AcDbLayerTableRecord
  2
0
 70
     0
 62
     7
  6
Continuous
370
    -3
390
9
  0
ENDTAB
  0
TABLE
  2
STYLE
  5
21
330
0
100
AcDbSymbolTable
 70
     1
  0
STYLE
  5
22
330
21
100
AcDbSymbolTableRecord
100
AcDbTextStyleTableRecord
  2
Standard
 70
     0
 40
0.0
 41
1.0
 50
0.0
 71
     0
 42
0.2
  3
technic_.ttf
  4

1001
ACAD
1000
Technic
1071
      514
  0
ENDTAB
  0
TABLE
  2
VIEW
  5
27
330
0
100
AcDbSymbolTable
 70
     0
  0
ENDTAB
  0
TABLE
  2
UCS
  5
28
330
0
100
AcDbSymbolTable
 70
     0
  0
ENDTAB
  0
TABLE
  2
APPID
  5
2D
330
0
100
AcDbSymbolTable
 70
     2
  0
APPID
  5
13
330
2D
100
AcDbSymbolTableRecord
100
AcDbRegAppTableRecord
  2
ACAD
 70
     0
  0
APPID
  5
B4
330
2D
100
AcDbSymbolTableRecord
100
AcDbRegAppTableRecord
  2
AcDbAttr
 70
     0
  0
ENDTAB
  0
TABLE
  2
DIMSTYLE
  5
2E
330
0
100
AcDbSymbolTable
 70
     1
100
AcDbDimStyleTable
  0
DIMSTYLE
105
2F
330
2E
100
AcDbSymbolTableRecord
100
AcDbDimStyleTableRecord
  2
Standard
 70
     0
340
22
  0
ENDTAB
  0
TABLE
  2
BLOCK_RECORD
  5
1
330
0
100
AcDbSymbolTable
 70
     0
  0
BLOCK_RECORD
  5
2
102
{ACAD_XDICTIONARY
360
3
102
}
330
1
100
AcDbSymbolTableRecord
100
AcDbBlockTableRecord
  2
*Model_Space
340
16
  0
BLOCK_RECORD
  5
18
330
1
100
AcDbSymbolTableRecord
100
AcDbBlockTableRecord
  2
*Paper_Space
340
1B
  0
ENDTAB
  0
ENDSEC
  0
SECTION
  2
BLOCKS
  0
BLOCK
  5
5
330
2
100
AcDbEntity
  8
0
100
AcDbBlockBegin
  2
*Model_Space
 70
     0
 71
     0
 10
0.0
 20
0.0
 30
0.0
  3
*Model_Space
  1

  0
ENDBLK
  5
15
330
2
100
AcDbEntity
  8
0
100
AcDbBlockEnd
  0
BLOCK
  5
19
330
18
100
AcDbEntity
 67
     1
  8
0
100
AcDbBlockBegin
  2
*Paper_Space
 70
     0
 71
     0
 10
0.0
 20
0.0
 30
0.0
  3
*Paper_Space
  1

  0
ENDBLK
  5
1A
330
18
100
AcDbEntity
 67
     1
  8
0
100
AcDbBlockEnd
  0
ENDSEC
  0
SECTION
  2
ENTITIES
  0
LINE
  5
5F
330
2
100
AcDbEntity
  8
0
  6
HIDDEN
 62
   254
 48
4.0
100
AcDbLine
 10
-224.0759068095056
 20
23.55830947649824
 30
0.0
 11
-251.4508657786759
 21
23.55830947649822
 31
0.0
  0
LINE
  5
61
330
2
100
AcDbEntity
  8
0
100
AcDbLine
 10
-222.484423200227
 20
23.74580947649824
 30
0.0
 11
-253.3547603060392
 21
23.74580947649822
 31
0.0
  0
LINE
  5
62
330
2
100
AcDbEntity
  8
0
100
AcDbLine
 10
-252.726923200227
 20
24.68330947649822
 30
0.0
 11
-224.171923200227
 21
24.68330947649824
 31
0.0
  0
LINE
  5
63
330
2
100
AcDbEntity
  8
0
100
AcDbLine
 10
-221.734423200227
 20
12.24580947649824
 30
0.0
 11
-221.734423200227
 21
22.99580947649824
 31
0.0
  0
LINE
  5
64
330
2
100
AcDbEntity
  8
0
100
AcDbLine
 10
-223.234423200227
 20
23.74580947649824
 30
0.0
 11
-224.171923200227
 21
24.68330947649824
 31
0.0
  0
LINE
  5
65
330
2
100
AcDbEntity
  8
0
  6
HIDDEN
 62
   254
 48
4.0
100
AcDbLine
 10
-222.484423200227
 20
23.74580947649825
 30
0.0
 11
-223.8545359238824
 21
23.59901168467802
 31
0.0
  0
ARC
  5
66
330
2
100
AcDbEntity
  8
0
100
AcDbCircle
 10
-222.484423200227
 20
22.99580947649827
 30
0.0
 40
0.75
100
AcDbArc
 50
359.9999999999992
 51
89.99999999999022
  0
ARC
  5
67
330
2
100
AcDbEntity
  8
0
100
AcDbCircle
 10
-220.734423200227
 20
12.24580947649824
 30
0.0
 40
1.0
100
AcDbArc
 50
180.0
 51
221.3714848094924
  0
ARC
  5
68
330
2
100
AcDbEntity
  8
0
100
AcDbCircle
 10
-221.8600833517695
 20
11.25440177871224
 30
0.0
 40
0.5
100
AcDbArc
 50
355.7432973108674
 51
41.37148480949188
  0
CIRCLE
  5
69
330
2
100
AcDbEntity
  8
0
100
AcDbCircle
 10
-237.734423200227
 20
20.74580947649822
 30
0.0
 40
1.25
  0
LINE
  5
6A
330
2
100
AcDbEntity
  8
0
100
AcDbLine
 10
-253.289423200227
 20
24.12080947649822
 30
0.0
 11
-253.476923200227
 21
24.12080947649822
 31
0.0
  0
ARC
  5
6B
330
2
100
AcDbEntity
  8
0
100
AcDbCircle
 10
-253.351923200227
 20
23.87077727567309
 30
0.0
 40
0.125
100
AcDbArc
 50
180.0000000000008
 51
271.3005451908245
  0
LINE
  5
6C
330
2
100
AcDbEntity
  8
0
100
AcDbLine
 10
-253.289423200227
 20
24.12080947649822
 30
0.0
 11
-252.726923200227
 21
24.68330947649822
 31
0.0
  0
LINE
  5
6D
330
2
100
AcDbEntity
  8
0
100
AcDbLine
 10
-253.476923200227
 20
24.68330947649822
 30
0.0
 11
-253.796923200227
 21
24.68330947649822
 31
0.0
  0
LINE
  5
6E
330
2
100
AcDbEntity
  8
0
100
AcDbLine
 10
-253.476923200227
 20
24.68330947649822
 30
0.0
 11
-253.476923200227
 21
23.87077727567309
 31
0.0
  0
ARC
  5
6F
330
2
100
AcDbEntity
  8
0
  6
HIDDEN
 62
   254
 48
4.0
100
AcDbCircle
 10
-223.694736238431
 20
22.1075479537983
 30
0.0
 40
1.5
100
AcDbArc
 50
96.11550356628618
 51
104.7210749017289
  0
LINE
  5
70
330
2
100
AcDbEntity
  8
0
  6
HIDDEN
 62
   254
 48
4.0
100
AcDbLine
 10
-253.546923200227
 20
24.68330947649822
 30
0.0
 11
-253.546923200227
 21
23.86237386226541
 31
0.0
  0
LINE
  5
71
330
2
100
AcDbEntity
  8
0
100
AcDbLine
 10
-253.796923200227
 20
24.68330947649822
 30
0.0
 11
-253.796923200227
 21
23.86237386226541
 31
0.0
  0
ARC
  5
72
330
2
100
AcDbEntity
  8
0
  6
HIDDEN
 62
   254
 48
4.0
100
AcDbCircle
 10
-253.351923200227
 20
23.86237386226544
 30
0.0
 40
0.195
100
AcDbArc
 50
180.0000000000008
 51
265.5911371038357
  0
ARC
  5
73
330
2
100
AcDbEntity
  8
0
100
AcDbCircle
 10
-253.351923200227
 20
23.86237386226544
 30
0.0
 40
0.445
100
AcDbArc
 50
180.0000000000008
 51
265.4915206592639
  0
LINE
  5
74
330
2
100
AcDbEntity
  8
0
  6
HIDDEN
 62
   254
 48
4.0
100
AcDbLine
 10
-253.3669134855421
 20
23.66795089205315
 30
0.0
 11
-251.7056909399756
 21
23.52771260562686
 31
0.0
  0
LINE
  5
75
330
2
100
AcDbEntity
  8
0
100
AcDbLine
 10
-253.3869031510541
 20
23.41875082066353
 30
0.0
 11
-251.7268274696392
 21
23.27860771383671
 31
0.0
  0
ARC
  5
76
330
2
100
AcDbEntity
  8
0
  6
HIDDEN
 62
   254
 48
4.0
100
AcDbCircle
 10
-251.8465413026342
 20
21.85362742997451
 30
0.0
 40
1.68
100
AcDbArc
 50
55.3048464687655
 51
85.19070500254807
  0
ARC
  5
77
330
2
100
AcDbEntity
  8
0
100
AcDbCircle
 10
-251.8465413026342
 20
21.85362742997451
 30
0.0
 40
1.43
100
AcDbArc
 50
55.3048464687655
 51
85.19070500254807
  0
LINE
  5
78
330
2
100
AcDbEntity
  8
0
  6
HIDDEN
 62
   254
 48
4.0
100
AcDbLine
 10
-250.8902685381993
 20
23.23491031193608
 30
0.0
 11
-249.938813425422
 21
22.57621061847489
 31
0.0
  0
LINE
  5
79
330
2
100
AcDbEntity
  8
0
100
AcDbLine
 10
-251.0325710329069
 20
23.02936226402513
 30
0.0
 11
-250.0811159201296
 21
22.37066257056394
 31
0.0
  0
ARC
  5
7A
330
2
100
AcDbEntity
  8
0
  6
HIDDEN
 62
   254
 48
4.0
100
AcDbCircle
 10
-250.3258762110266
 20
22.01711992815713
 30
0.0
 40
0.6799999999999999
100
AcDbArc
 50
4.999999999999791
 51
55.3048464687655
  0
ARC
  5
7B
330
2
100
AcDbEntity
  8
0
100
AcDbCircle
 10
-250.3258762110266
 20
22.01711992815713
 30
0.0
 40
0.4299999999999999
100
AcDbArc
 50
4.999999999999791
 51
55.3048464687655
  0
LINE
  5
7C
330
2
100
AcDbEntity
  8
0
  6
HIDDEN
 62
   254
 48
4.0
100
AcDbLine
 10
-249.6484638163242
 20
22.07638583322553
 30
0.0
 11
-248.5725221052828
 21
9.778315801297893
 31
0.0
  0
LINE
  5
7D
330
2
100
AcDbEntity
  8
0
100
AcDbLine
 10
-249.8975124908472
 20
22.05459689753862
 30
0.0
 11
-248.8215707798057
 21
9.756526865610983
 31
0.0
  0
ARC
  5
7E
330
2
100
AcDbEntity
  8
0
  6
HIDDEN
 62
   254
 48
4.0
100
AcDbCircle
 10
-245.5142043821411
 20
10.04588393153317
 30
0.0
 40
3.07
100
AcDbArc
 50
184.9999999999998
 51
265.5822713133322
  0
ARC
  5
7F
330
2
100
AcDbEntity
  8
0
100
AcDbCircle
 10
-245.5142043821411
 20
10.04588393153317
 30
0.0
 40
3.32
100
AcDbArc
 50
184.9999999999998
 51
265.5822713133322
  0
ARC
  5
80
330
2
100
AcDbEntity
  8
0
  6
HIDDEN
 62
   254
 48
4.0
100
AcDbCircle
 10
-237.7344232002271
 20
110.7458094764983
 30
0.0
 40
104.07
100
AcDbArc
 50
265.5822713133322
 51
274.4177286866677
  0
ARC
  5
81
330
2
100
AcDbEntity
  8
0
100
AcDbCircle
 10
-237.7344232002271
 20
110.7458094764983
 30
0.0
 40
104.32
100
AcDbArc
 50
265.5822713133322
 51
274.4177286866677
  0
LINE
  5
82
330
2
100
AcDbEntity
  8
0
  6
HIDDEN
 62
   254
 48
4.0
100
AcDbLine
 10
-225.8203825841297
 20
22.07638583322556
 30
0.0
 11
-226.8963242951711
 21
9.778315801297865
 31
0.0
  0
LINE
  5
83
330
2
100
AcDbEntity
  8
0
100
AcDbLine
 10
-225.5713339096068
 20
22.05459689753864
 30
0.0
 11
-226.6472756206482
 21
9.756526865610955
 31
0.0
  0
ARC
  5
84
330
2
100
AcDbEntity
  8
0
  6
HIDDEN
 62
   254
 48
4.0
100
AcDbCircle
 10
-229.9546420183128
 20
10.04588393153316
 30
0.0
 40
3.07
100
AcDbArc
 50
274.4177286866677
 51
355.0000000000002
  0
ARC
  5
85
330
2
100
AcDbEntity
  8
0
100
AcDbCircle
 10
-229.9546420183128
 20
10.04588393153316
 30
0.0
 40
3.32
100
AcDbArc
 50
274.4177286866677
 51
355.0000000000002
  0
ARC
  5
86
330
2
100
AcDbEntity
  8
0
  6
HIDDEN
 62
   254
 48
4.0
100
AcDbCircle
 10
-222.484423200227
 20
22.99580947649827
 30
0.0
 40
0.6799999999999999
100
AcDbArc
 50
359.9999999999992
 51
89.99999999999022
  0
ARC
  5
87
330
2
100
AcDbEntity
  8
0
100
AcDbCircle
 10
-222.484423200227
 20
22.99580947649827
 30
0.0
 40
0.4299999999999999
100
AcDbArc
 50
359.9999999999992
 51
89.99999999999022
  0
LINE
  5
88
330
2
100
AcDbEntity
  8
0
  6
HIDDEN
 62
   254
 48
4.0
100
AcDbLine
 10
-221.8044232002269
 20
22.49580947649824
 30
0.0
 11
-221.804423200227
 21
22.99580947649824
 31
0.0
  0
LINE
  5
89
330
2
100
AcDbEntity
  8
0
100
AcDbLine
 10
-222.0544232002269
 20
22.36140087434772
 30
0.0
 11
-222.054423200227
 21
22.99580947649822
 31
0.0
  0
LINE
  5
8A
330
2
100
AcDbEntity
  8
0
  6
HIDDEN
 62
   254
 48
4.0
100
AcDbLine
 10
-222.4844232002268
 20
23.67580947649827
 30
0.0
 11
-223.847078605228
 21
23.52941004390364
 31
0.0
  0
LINE
  5
8B
330
2
100
AcDbEntity
  8
0
100
AcDbLine
 10
-222.4844232002269
 20
23.42580947649827
 30
0.0
 11
-223.8204453243194
 21
23.28083275542369
 31
0.0
  0
ARC
  5
8C
330
2
100
AcDbEntity
  8
0
  6
HIDDEN
 62
   254
 48
4.0
100
AcDbCircle
 10
-223.694736238431
 20
22.1075479537983
 30
0.0
 40
1.43
100
AcDbArc
 50
96.11550356628618
 51
124.6951535312344
  0
ARC
  5
8D
330
2
100
AcDbEntity
  8
0
100
AcDbCircle
 10
-223.694736238431
 20
22.1075479537983
 30
0.0
 40
1.18
100
AcDbArc
 50
96.11550356628618
 51
124.6951535312344
  0
LINE
  5
8E
330
2
100
AcDbEntity
  8
0
  6
HIDDEN
 62
   254
 48
4.0
100
AcDbLine
 10
-224.5087065081583
 20
23.2832827878489
 30
0.0
 11
-225.5300329750319
 21
22.57621061847492
 31
0.0
  0
LINE
  5
8F
330
2
100
AcDbEntity
  8
0
100
AcDbLine
 10
-224.3664040134507
 20
23.07773473993796
 30
0.0
 11
-225.3877304803243
 21
22.37066257056397
 31
0.0
  0
ARC
  5
90
330
2
100
AcDbEntity
  8
0
  6
HIDDEN
 62
   254
 48
4.0
100
AcDbCircle
 10
-225.1429701894273
 20
22.01711992815716
 30
0.0
 40
0.6799999999999999
100
AcDbArc
 50
124.6951535312345
 51
175.0000000000002
  0
ARC
  5
91
330
2
100
AcDbEntity
  8
0
100
AcDbCircle
 10
-225.1429701894273
 20
22.01711992815716
 30
0.0
 40
0.4299999999999999
100
AcDbArc
 50
124.6951535312345
 51
175.0000000000002
  0
LINE
  5
92
330
2
100
AcDbEntity
  8
0
100
AcDbLine
 10
-222.734423200227
 20
6.668144433553266
 30
0.0
 11
-222.734423200227
 21
21.99580947649824
 31
0.0
  0
LINE
  5
93
330
2
100
AcDbEntity
  8
0
100
AcDbLine
 10
-222.734423200227
 20
21.99580947649824
 30
0.0
 11
-221.804423200227
 21
22.49580947649824
 31
0.0
  0
LINE
  5
94
330
2
100
AcDbEntity
  8
0
100
AcDbLine
 10
-222.734423200227
 20
6.668144433553266
 30
0.0
 11
-222.1261586347873
 21
6.059879868113654
 31
0.0
  0
LINE
  5
95
330
2
100
AcDbEntity
  8
0
100
AcDbLine
 10
-221.9714790264027
 20
5.995809476498209
 30
0.0
 11
-221.953173200227
 21
5.995809476498209
 31
0.0
  0
ARC
  5
96
330
2
100
AcDbEntity
  8
0
100
AcDbCircle
 10
-221.9714790264027
 20
6.214559476498209
 30
0.0
 40
0.21875
100
AcDbArc
 50
225.0
 51
270.0
  0
ARC
  5
97
330
2
100
AcDbEntity
  8
0
100
AcDbCircle
 10
-221.953173200227
 20
6.214559476498209
 30
0.0
 40
0.2187500000000018
100
AcDbArc
 50
270.0
 51
355.743297310869
  0
LINE
  5
98
330
2
100
AcDbEntity
  8
0
100
AcDbLine
 10
-221.3614625973852
 20
11.21728920271333
 30
0.0
 11
-221.7350266201838
 21
6.198322724498695
 31
0.0
  0
LINE
  5
99
330
2
100
AcDbEntity
  8
0
100
AcDbLine
 10
-236.6386021667518
 20
6.127309476498255
 30
0.0
 11
-238.8302442337021
 21
6.127309476497686
 31
0.0
  0
LINE
  5
9A
330
2
100
AcDbEntity
  8
0
100
AcDbLine
 10
-236.3108471018235
 20
6.221291729024909
 30
0.0
 11
-235.986149187118
 21
6.424185504553247
 31
0.0
  0
ARC
  5
9B
330
2
100
AcDbEntity
  8
0
100
AcDbCircle
 10
-236.6426166021523
 20
6.759809476497679
 30
0.0
 40
0.6325000000000001
100
AcDbArc
 50
269.999999999987
 51
301.9999999999976
  0
ARC
  5
9C
330
2
100
AcDbEntity
  8
0
100
AcDbCircle
 10
-235.9247648497087
 20
6.323989233292465
 30
0.0
 40
0.1175
100
AcDbArc
 50
90.99285194611834
 51
121.9999999999977
  0
ARC
  5
9D
330
2
100
AcDbEntity
  8
0
100
AcDbCircle
 10
-239.5440815507452
 20
6.323989233292465
 30
0.0
 40
0.1175
100
AcDbArc
 50
58.00000000000233
 51
89.00714805388166
  0
ARC
  5
9E
330
2
100
AcDbEntity
  8
0
100
AcDbCircle
 10
-239.5440815507452
 20
6.323989233292465
 30
0.0
 40
0.1175
100
AcDbArc
 50
58.00000000000233
 51
89.00714805388166
  0
ARC
  5
9F
330
2
100
AcDbEntity
  8
0
100
AcDbCircle
 10
-238.8262297983016
 20
6.759809476497679
 30
0.0
 40
0.6325000000000001
100
AcDbArc
 50
238.0000000000024
 51
270.0000000000163
  0
LINE
  5
A0
330
2
100
AcDbEntity
  8
0
100
AcDbLine
 10
-239.1579992986304
 20
6.221291729024909
 30
0.0
 11
-239.482697213336
 21
6.424185504553247
 31
0.0
  0
LWPOLYLINE
  5
A1
330
2
100
AcDbEntity
  8
0
  6
HIDDEN
 62
   254
 48
4.0
100
AcDbPolyline
 90
        4
 70
     1
 43
0.0
 10
-244.3518436483032
 20
18.161772059826
 10
-232.5470027521507
 20
18.161772059826
 10
-232.5470027521507
 20
12.72602677953701
 10
-244.3518436483032
 20
12.72602677953701
  0
ATTDEF
  5
A2
330
2
100
AcDbEntity
  8
0
100
AcDbText
 10
-237.734423200227
 20
23.24580947649823
 30
0.0
 40
0.5
  1
AMERICAN STANDARD
 11
-237.734423200227
 21
23.74580947649823
 31
0.0
100
AcDbAttributeDefinition
  3

  2
BRAND
 70
     9
 74
     3
1001
AcDbAttr
1070
     0
1070
     1
  0
ATTDEF
  5
A3
330
2
100
AcDbEntity
  8
0
100
AcDbText
 10
-237.734423200227
 20
22.41247614316492
 30
0.0
 40
0.5
  1
2460
 11
-237.734423200227
 21
22.91247614316492
 31
0.0
100
AcDbAttributeDefinition
  3

  2
FIXTURE-NUMBER
 70
     9
 74
     3
1001
AcDbAttr
1070
     0
1070
     1
  0
ATTDEF
  5
A4
330
2
100
AcDbEntity
  8
0
100
AcDbText
 10
-237.734423200227
 20
21.57914280983157
 30
0.0
 40
0.5
  1
CAMBRIDGE 5' LHO
 11
-237.734423200227
 21
22.07914280983157
 31
0.0
100
AcDbAttributeDefinition
  3

  2
PRODUCT-NAME
 70
     9
 74
     3
1001
AcDbAttr
1070
     0
1070
     1
  0
ATTDEF
  5
A5
330
2
100
AcDbEntity
  8
0
100
AcDbText
 10
-237.734423200227
 20
20.74580947649823
 30
0.0
 40
0.5
  1
ENAMELED STEEL w/AMERICAST
 11
-237.734423200227
 21
21.24580947649823
 31
0.0
100
AcDbAttributeDefinition
  3

  2
MATERIAL
 70
     9
 74
     3
1001
AcDbAttr
1070
     0
1070
     1
  0
ENDSEC
  0
SECTION
  2
OBJECTS
  0
DICTIONARY
  5
B
330
0
100
AcDbDictionary
281
     1
  3
ACAD_COLOR
350
36
  3
ACAD_GROUP
350
31
  3
ACAD_LAYOUT
350
17
  3
ACAD_MATERIAL
350
D
  3
ACAD_MLINESTYLE
350
32
  3
ACAD_PLOTSETTINGS
350
33
  3
ACAD_PLOTSTYLENAME
350
A
  3
ACAD_SCALELIST
350
37
  3
ACAD_TABLESTYLE
350
38
  3
ACAD_VISUALSTYLE
350
2C
  3
ACDB_RECOMPOSE_DATA
350
A9
  3
ACDBHEADERROUNDTRIPXREC
350
BF
  3
AcDbVariableDictionary
350
B5
  0
DICTIONARY
  5
1D
330
1C
100
AcDbDictionary
280
     1
281
     1
  3
ACAD_LAYERFILTERS
360
1E
  3
ACAD_LAYERSTATES
360
1F
  3
ACLYDICTIONARY
360
20
  0
DICTIONARY
  5
7
330
6
100
AcDbDictionary
280
     1
281
     1
  3
ADSK_XREC_LAYER_RECONCILED
360
8
  0
DICTIONARY
  5
3
330
2
100
AcDbDictionary
280
     1
281
     1
  3
ACAD_SORTENTS
360
A6
  0
DICTIONARY
  5
36
102
{ACAD_REACTORS
330
B
102
}
330
B
100
AcDbDictionary
281
     1
  0
DICTIONARY
  5
31
102
{ACAD_REACTORS
330
B
102
}
330
B
100
AcDbDictionary
281
     1
  0
DICTIONARY
  5
17
102
{ACAD_REACTORS
330
B
102
}
330
B
100
AcDbDictionary
281
     1
  3
Layout1
350
1B
  3
Model
350
16
  0
DICTIONARY
  5
D
102
{ACAD_REACTORS
330
B
102
}
330
B
100
AcDbDictionary
281
     1
  3
ByBlock
350
35
  3
ByLayer
350
34
  3
Global
350
C
  0
DICTIONARY
  5
32
102
{ACAD_REACTORS
330
B
102
}
330
B
100
AcDbDictionary
281
     1
  3
Standard
350
39
  0
DICTIONARY
  5
33
102
{ACAD_REACTORS
330
B
102
}
330
B
100
AcDbDictionary
281
     1
  0
ACDBDICTIONARYWDFLT
  5
A
102
{ACAD_REACTORS
330
B
102
}
330
B
100
AcDbDictionary
281
     1
  3
Normal
350
9
100
AcDbDictionaryWithDefault
340
9
  0
DICTIONARY
  5
37
102
{ACAD_REACTORS
330
B
102
}
330
B
100
AcDbDictionary
281
     1
  3
A0
350
3E
  3
A1
350
3F
  3
A2
350
40
  3
A3
350
41
  3
A4
350
42
  3
A5
350
43
  3
A6
350
44
  3
A7
350
45
  3
A8
350
46
  3
A9
350
47
  3
B0
350
48
  3
B1
350
49
  3
B2
350
4A
  3
B3
350
4B
  3
B4
350
4C
  3
B5
350
4D
  3
B6
350
4E
  3
B7
350
4F
  3
B8
350
50
  3
B9
350
51
  3
C0
350
52
  3
C1
350
53
  3
C2
350
54
  3
C3
350
55
  3
C4
350
56
  3
C5
350
57
  3
C6
350
58
  3
C7
350
59
  3
C8
350
5A
  3
C9
350
5B
  3
D0
350
5C
  3
D1
350
5D
  3
D2
350
5E
  0
DICTIONARY
  5
38
102
{ACAD_REACTORS
330
B
102
}
330
B
100
AcDbDictionary
281
     1
  3
Standard
350
3A
  0
DICTIONARY
  5
2C
102
{ACAD_REACTORS
330
B
102
}
330
B
100
AcDbDictionary
281
     1
  3
2dWireframe
350
2B
  3
3dWireframe
350
3D
  3
Realistic
350
3C
  0
XRECORD
  5
A9
102
{ACAD_REACTORS
330
B
102
}
330
B
100
AcDbXrecord
280
     1
 90
        1
330
3A
  0
DICTIONARY
  5
BF
102
{ACAD_REACTORS
330
B
102
}
330
B
100
AcDbDictionary
281
     1
  3
COLORDICT
350
C0
  3
MATERIALDICT
350
C1
  0
DICTIONARY
  5
B5
102
{ACAD_REACTORS
330
B
102
}
330
B
100
AcDbDictionary
281
     1
  3
CANNOSCALE
350
B9
  3
CMLEADERSTYLE
350
B7
  3
CTABLESTYLE
350
B6
  3
DIMASSOC
350
BE
  3
HIDETEXT
350
BD
  3
LIGHTINGUNITS
350
BA
  3
MSLTSCALE
350
B8
  0
DICTIONARY
  5
1E
102
{ACAD_REACTORS
330
1D
102
}
330
1D
100
AcDbDictionary
281
     1
  0
DICTIONARY
  5
1F
102
{ACAD_REACTORS
330
1D
102
}
330
1D
100
AcDbDictionary
281
     1
  0
DICTIONARY
  5
20
102
{ACAD_REACTORS
330
1D
102
}
330
1D
100
AcDbDictionary
281
     1
1001
ACAD
1000
<All
  0
XRECORD
  5
8
102
{ACAD_REACTORS
330
7
102
}
330
7
100
AcDbXrecord
280
     1
290
     1
  0
SORTENTSTABLE
  5
A6
102
{ACAD_REACTORS
330
3
102
}
330
3
100
AcDbSortentsTable
330
2
331
A1
  5
A5
331
A2
  5
A1
331
A3
  5
A4
331
A4
  5
A3
331
A5
  5
A2
  0
LAYOUT
  5
1B
102
{ACAD_REACTORS
330
17
102
}
330
17
100
AcDbPlotSettings
  1

  2
None
  4

  6

 40
0.0
 41
0.0
 42
0.0
 43
0.0
 44
0.0
 45
0.0
 46
0.0
 47
0.0
 48
0.0
 49
0.0
140
0.0
141
0.0
142
1.0
143
1.0
 70
   688
 72
     0
 73
     0
 74
     5
  7

 75
    16
147
1.0
148
0.0
149
0.0
100
AcDbLayout
  1
Layout1
 70
     1
 71
     1
 10
0.0
 20
0.0
 11
12.0
 21
9.0
 12
0.0
 22
0.0
 32
0.0
 14
0.0
 24
0.0
 34
0.0
 15
0.0
 25
0.0
 35
0.0
146
0.0
 13
0.0
 23
0.0
 33
0.0
 16
1.0
 26
0.0
 36
0.0
 17
0.0
 27
1.0
 37
0.0
 76
     0
330
18
  0
LAYOUT
  5
16
102
{ACAD_REACTORS
330
17
102
}
330
17
100
AcDbPlotSettings
  1

  2
none_device
  4
ANSI_A_(8.50_x_11.00_Inches)
  6

 40
6.349999904632568
 41
19.04999923706055
 42
6.350006103515625
 43
19.04998779296875
 44
215.8999938964844
 45
279.3999938964844
 46
0.0
 47
0.0
 48
0.0
 49
0.0
140
0.0
141
0.0
142
1.0
143
2.584895464708374
 70
 11952
 72
     0
 73
     1
 74
     0
  7

 75
     0
147
0.3868628397755418
148
0.0
149
0.0
100
AcDbLayout
  1
Model
 70
     1
 71
     0
 10
0.0
 20
0.0
 11
12.0
 21
9.0
 12
0.0
 22
0.0
 32
0.0
 14
0.0
 24
0.0
 34
0.0
 15
0.0
 25
0.0
 35
0.0
146
0.0
 13
0.0
 23
0.0
 33
0.0
 16
1.0
 26
0.0
 36
0.0
 17
0.0
 27
1.0
 37
0.0
 76
     0
330
2
  0
MATERIAL
  5
35
102
{ACAD_REACTORS
330
D
102
}
102
{ACAD_XDICTIONARY
360
B1
102
}
330
D
100
AcDbMaterial
  1
ByBlock
 73
     2
 78
     2
172
     2
176
     2
270
     2
273
     0
274
     2
  0
MATERIAL
  5
34
102
{ACAD_REACTORS
330
D
102
}
102
{ACAD_XDICTIONARY
360
AF
102
}
330
D
100
AcDbMaterial
  1
ByLayer
 73
     2
 78
     2
172
     2
176
     2
270
     2
273
     0
274
     2
  0
MATERIAL
  5
C
102
{ACAD_REACTORS
330
D
102
}
102
{ACAD_XDICTIONARY
360
E
102
}
330
D
100
AcDbMaterial
  1
Global
 73
     2
 43
0.0208000000566244
 43
0.0
 43
0.0
 43
0.0
 43
0.0
 43
0.0208000000566244
 43
0.0
 43
0.0
 43
0.0
 43
0.0
 43
1.0
 43
0.0
 43
0.0
 43
0.0
 43
0.0
 43
1.0
 78
     2
172
     2
 49
0.0208000000566244
 49
0.0
 49
0.0
 49
0.0
 49
0.0
 49
0.0208000000566244
 49
0.0
 49
0.0
 49
0.0
 49
0.0
 49
1.0
 49
0.0
 49
0.0
 49
0.0
 49
0.0
 49
1.0
176
     2
142
0.0208000000566244
142
0.0
142
0.0
142
0.0
142
0.0
142
0.0208000000566244
142
0.0
142
0.0
142
0.0
142
0.0
142
1.0
142
0.0
142
0.0
142
0.0
142
0.0
142
1.0
270
     2
144
0.0208000000566244
144
0.0
144
0.0
144
0.0
144
0.0
144
0.0208000000566244
144
0.0
144
0.0
144
0.0
144
0.0
144
1.0
144
0.0
144
0.0
144
0.0
144
0.0
144
1.0
273
     0
274
     2
1001
ACAD
1070
    -1
1070
     3
1070
     0
1000

1071
        0
1070
     0
  0
MLINESTYLE
  5
39
102
{ACAD_REACTORS
330
32
102
}
330
32
100
AcDbMlineStyle
  2
STANDARD
 70
     0
  3

 62
   256
 51
90.0
 52
90.0
 71
     2
 49
0.5
 62
   256
  6
BYLAYER
 49
-0.5
 62
   256
  6
BYLAYER
  0
ACDBPLACEHOLDER
  5
9
102
{ACAD_REACTORS
330
A
102
}
330
A
  0
ACAD_PROXY_OBJECT
  5
3E
102
{ACAD_REACTORS
330
37
102
}
330
37
100
AcDbProxyObject
 90
      499
 91
      507
 95
   983063
 70
     0
 93
       49
310
904313A3100580
  0
ACAD_PROXY_OBJECT
  5
3F
102
{ACAD_REACTORS
330
37
102
}
330
37
100
AcDbProxyObject
 90
      499
 91
      507
 95
   983063
 70
     0
 93
      113
310
904313A32004000000000000004000
  0
ACAD_PROXY_OBJECT
  5
40
102
{ACAD_REACTORS
330
37
102
}
330
37
100
AcDbProxyObject
 90
      499
 91
      507
 95
   983063
 70
     0
 93
      113
310
904313A34004000000000000104000
  0
ACAD_PROXY_OBJECT
  5
41
102
{ACAD_REACTORS
330
37
102
}
330
37
100
AcDbProxyObject
 90
      499
 91
      507
 95
   983063
 70
     0
 93
      113
310
904313A35004000000000000144000
  0
ACAD_PROXY_OBJECT
  5
42
102
{ACAD_REACTORS
330
37
102
}
330
37
100
AcDbProxyObject
 90
      499
 91
      507
 95
   983063
 70
     0
 93
      113
310
904313A38004000000000000204000
  0
ACAD_PROXY_OBJECT
  5
43
102
{ACAD_REACTORS
330
37
102
}
330
37
100
AcDbProxyObject
 90
      499
 91
      507
 95
   983063
 70
     0
 93
      121
310
905313A3130004000000000000244000
  0
ACAD_PROXY_OBJECT
  5
44
102
{ACAD_REACTORS
330
37
102
}
330
37
100
AcDbProxyObject
 90
      499
 91
      507
 95
   983063
 70
     0
 93
      121
310
905313A3136004000000000000304000
  0
ACAD_PROXY_OBJECT
  5
45
102
{ACAD_REACTORS
330
37
102
}
330
37
100
AcDbProxyObject
 90
      499
 91
      507
 95
   983063
 70
     0
 93
      121
310
905313A3230004000000000000344000
  0
ACAD_PROXY_OBJECT
  5
46
102
{ACAD_REACTORS
330
37
102
}
330
37
100
AcDbProxyObject
 90
      499
 91
      507
 95
   983063
 70
     0
 93
      121
310
905313A33300040000000000003E4000
  0
ACAD_PROXY_OBJECT
  5
47
102
{ACAD_REACTORS
330
37
102
}
330
37
100
AcDbProxyObject
 90
      499
 91
      507
 95
   983063
 70
     0
 93
      121
310
905313A3430004000000000000444000
  0
ACAD_PROXY_OBJECT
  5
48
102
{ACAD_REACTORS
330
37
102
}
330
37
100
AcDbProxyObject
 90
      499
 91
      507
 95
   983063
 70
     0
 93
      121
310
905313A3530004000000000000494000
  0
ACAD_PROXY_OBJECT
  5
49
102
{ACAD_REACTORS
330
37
102
}
330
37
100
AcDbProxyObject
 90
      499
 91
      507
 95
   983063
 70
     0
 93
      129
310
906313A313030004000000000000594000
  0
ACAD_PROXY_OBJECT
  5
4A
102
{ACAD_REACTORS
330
37
102
}
330
37
100
AcDbProxyObject
 90
      499
 91
      507
 95
   983063
 70
     0
 93
      113
310
904323A31000000000000000010100
  0
ACAD_PROXY_OBJECT
  5
4B
102
{ACAD_REACTORS
330
37
102
}
330
37
100
AcDbProxyObject
 90
      499
 91
      507
 95
   983063
 70
     0
 93
      113
310
904343A31000000000000000410100
  0
ACAD_PROXY_OBJECT
  5
4C
102
{ACAD_REACTORS
330
37
102
}
330
37
100
AcDbProxyObject
 90
      499
 91
      507
 95
   983063
 70
     0
 93
      113
310
904383A31000000000000000810100
  0
ACAD_PROXY_OBJECT
  5
4D
102
{ACAD_REACTORS
330
37
102
}
330
37
100
AcDbProxyObject
 90
      499
 91
      507
 95
   983063
 70
     0
 93
      121
310
90531303A31000000000000000910100
  0
ACAD_PROXY_OBJECT
  5
4E
102
{ACAD_REACTORS
330
37
102
}
330
37
100
AcDbProxyObject
 90
      499
 91
      507
 95
   983063
 70
     0
 93
      129
310
9063130303A31000000000000001650100
  0
ACAD_PROXY_OBJECT
  5
4F
102
{ACAD_REACTORS
330
37
102
}
330
37
100
AcDbProxyObject
 90
      499
 91
      507
 95
   983063
 70
     0
 93
      265
310
90F312F31323822203D2031272D302200000000000000200FC000000000000284000
  0
ACAD_PROXY_OBJECT
  5
50
102
{ACAD_REACTORS
330
37
102
}
330
37
100
AcDbProxyObject
 90
      499
 91
      507
 95
   983063
 70
     0
 93
      257
310
90E312F363422203D2031272D302200000000000000240FC000000000000284000
  0
ACAD_PROXY_OBJECT
  5
51
102
{ACAD_REACTORS
330
37
102
}
330
37
100
AcDbProxyObject
 90
      499
 91
      507
 95
   983063
 70
     0
 93
      257
310
90E312F333222203D2031272D302200000000000000280FC000000000000284000
  0
ACAD_PROXY_OBJECT
  5
52
102
{ACAD_REACTORS
330
37
102
}
330
37
100
AcDbProxyObject
 90
      499
 91
      507
 95
   983063
 70
     0
 93
      257
310
90E312F313622203D2031272D3022000000000000002C0FC000000000000284000
  0
ACAD_PROXY_OBJECT
  5
53
102
{ACAD_REACTORS
330
37
102
}
330
37
100
AcDbProxyObject
 90
      499
 91
      507
 95
   983063
 70
     0
 93
      257
310
90E332F333222203D2031272D3022000000000000002E0FC000000000000284000
  0
ACAD_PROXY_OBJECT
  5
54
102
{ACAD_REACTORS
330
37
102
}
330
37
100
AcDbProxyObject
 90
      499
 91
      507
 95
   983063
 70
     0
 93
      249
310
90D312F3822203D2031272D302200000000000000300FC000000000000284000
  0
ACAD_PROXY_OBJECT
  5
55
102
{ACAD_REACTORS
330
37
102
}
330
37
100
AcDbProxyObject
 90
      499
 91
      507
 95
   983063
 70
     0
 93
      257
310
90E332F313622203D2031272D302200000000000000320FC000000000000284000
  0
ACAD_PROXY_OBJECT
  5
56
102
{ACAD_REACTORS
330
37
102
}
330
37
100
AcDbProxyObject
 90
      499
 91
      507
 95
   983063
 70
     0
 93
      249
310
90D312F3422203D2031272D302200000000000000340FC000000000000284000
  0
ACAD_PROXY_OBJECT
  5
57
102
{ACAD_REACTORS
330
37
102
}
330
37
100
AcDbProxyObject
 90
      499
 91
      507
 95
   983063
 70
     0
 93
      249
310
90D332F3822203D2031272D302200000000000000360FC000000000000284000
  0
ACAD_PROXY_OBJECT
  5
58
102
{ACAD_REACTORS
330
37
102
}
330
37
100
AcDbProxyObject
 90
      499
 91
      507
 95
   983063
 70
     0
 93
      249
310
90D312F3222203D2031272D302200000000000000380FC000000000000284000
  0
ACAD_PROXY_OBJECT
  5
59
102
{ACAD_REACTORS
330
37
102
}
330
37
100
AcDbProxyObject
 90
      499
 91
      507
 95
   983063
 70
     0
 93
      249
310
90D332F3422203D2031272D3022000000000000003A0FC000000000000284000
  0
ACAD_PROXY_OBJECT
  5
5A
102
{ACAD_REACTORS
330
37
102
}
330
37
100
AcDbProxyObject
 90
      499
 91
      507
 95
   983063
 70
     0
 93
      169
310
90B3122203D2031272D3022004000000000000284000
  0
ACAD_PROXY_OBJECT
  5
5B
102
{ACAD_REACTORS
330
37
102
}
330
37
100
AcDbProxyObject
 90
      499
 91
      507
 95
   983063
 70
     0
 93
      265
310
90F312D312F3222203D2031272D3022000000000000003E0FC000000000000284000
  0
ACAD_PROXY_OBJECT
  5
5C
102
{ACAD_REACTORS
330
37
102
}
330
37
100
AcDbProxyObject
 90
      499
 91
      507
 95
   983063
 70
     0
 93
      233
310
90B3322203D2031272D30220000000000000002100000000000000284000
  0
ACAD_PROXY_OBJECT
  5
5D
102
{ACAD_REACTORS
330
37
102
}
330
37
100
AcDbProxyObject
 90
      499
 91
      507
 95
   983063
 70
     0
 93
      233
310
90B3622203D2031272D30220000000000000006100000000000000284000
  0
ACAD_PROXY_OBJECT
  5
5E
102
{ACAD_REACTORS
330
37
102
}
330
37
100
AcDbProxyObject
 90
      499
 91
      507
 95
   983063
 70
     0
 93
      257
310
90E31272D3022203D2031272D3022000000000000000A100000000000000284000
  0
TABLESTYLE
  5
3A
102
{ACAD_REACTORS
330
38
102
}
102
{ACAD_XDICTIONARY
360
3B
102
}
330
38
100
AcDbTableStyle
  3
Standard
 70
     0
 71
     0
 40
0.06
 41
0.06
280
     0
281
     0
  7
Standard
140
0.18
170
     2
 62
     0
 63
     7
283
     0
274
    -2
284
     1
 64
     0
275
    -2
285
     1
 65
     0
276
    -2
286
     1
 66
     0
277
    -2
287
     1
 67
     0
278
    -2
288
     1
 68
     0
279
    -2
289
     1
 69
     0
  7
Standard
140
0.25
170
     5
 62
     0
 63
     7
283
     0
274
    -2
284
     1
 64
     0
275
    -2
285
     1
 65
     0
276
    -2
286
     1
 66
     0
277
    -2
287
     1
 67
     0
278
    -2
288
     1
 68
     0
279
    -2
289
     1
 69
     0
  7
Standard
140
0.18
170
     5
 62
     0
 63
     7
283
     0
274
    -2
284
     1
 64
     0
275
    -2
285
     1
 65
     0
276
    -2
286
     1
 66
     0
277
    -2
287
     1
 67
     0
278
    -2
288
     1
 68
     0
279
    -2
289
     1
 69
     0
  0
ACAD_PROXY_OBJECT
  5
2B
102
{ACAD_REACTORS
330
2C
102
}
330
2C
100
AcDbProxyObject
 90
      499
 91
      506
 95
   983063
 70
     0
 93
      452
310
430C9915DA5C99599C985B5940104902404333333333333E3BF0000000000000FB0107901411070040501600405405064090741402480A0340
1001
ACAD
1000
AcDbSavedByObjectVersion
1070
     0
  0
ACAD_PROXY_OBJECT
  5
3D
102
{ACAD_REACTORS
330
2C
102
}
330
2C
100
AcDbProxyObject
 90
      499
 91
      506
 95
   983063
 70
     0
 93
      452
310
430CD915DA5C99599C985B5940105902404333333333333E3BF0000000000000FB0107901411070040501600405405064090741402480A0340
1001
ACAD
1000
AcDbSavedByObjectVersion
1070
     0
  0
ACAD_PROXY_OBJECT
  5
3C
102
{ACAD_REACTORS
330
2C
102
}
330
2C
100
AcDbProxyObject
 90
      499
 91
      506
 95
   983063
 70
     0
 93
      436
310
429499585B1A5CDD1A58C010840902404333333333333E3BF0000000000000FB01079019070040501508421405064090741402480A1B40
1001
ACAD
1000
AcDbSavedByObjectVersion
1070
     0
  0
XRECORD
  5
C0
102
{ACAD_REACTORS
330
BF
102
}
330
BF
100
AcDbXrecord
280
     1
340
36
  0
XRECORD
  5
C1
102
{ACAD_REACTORS
330
BF
102
}
330
BF
100
AcDbXrecord
280
     1
340
D
  0
DICTIONARYVAR
  5
B9
102
{ACAD_REACTORS
330
B5
102
}
330
B5
100
DictionaryVariables
280
     0
  1
1:1
  0
DICTIONARYVAR
  5
B7
102
{ACAD_REACTORS
330
B5
102
}
330
B5
100
DictionaryVariables
280
     0
  1
STANDARD
  0
DICTIONARYVAR
  5
B6
102
{ACAD_REACTORS
330
B5
102
}
330
B5
100
DictionaryVariables
280
     0
  1
STANDARD
  0
DICTIONARYVAR
  5
BE
102
{ACAD_REACTORS
330
B5
102
}
330
B5
100
DictionaryVariables
280
     0
  1
2
  0
DICTIONARYVAR
  5
BD
102
{ACAD_REACTORS
330
B5
102
}
330
B5
100
DictionaryVariables
280
     0
  1
1
  0
DICTIONARYVAR
  5
BA
102
{ACAD_REACTORS
330
B5
102
}
330
B5
100
DictionaryVariables
280
     0
  1
2
  0
DICTIONARYVAR
  5
B8
102
{ACAD_REACTORS
330
B5
102
}
330
B5
100
DictionaryVariables
280
     0
  1
1
  0
DICTIONARY
  5
B1
330
35
100
AcDbDictionary
280
     1
281
     1
  3
ACAD_XREC_ROUNDTRIP
360
B2
  0
DICTIONARY
  5
AF
330
34
100
AcDbDictionary
280
     1
281
     1
  3
ACAD_XREC_ROUNDTRIP
360
B0
  0
DICTIONARY
  5
E
330
C
100
AcDbDictionary
280
     1
281
     1
  3
ACAD_XREC_ROUNDTRIP
360
AA
  3
BUMPTILE
360
F
  3
DIFFUSETILE
360
10
  3
OPACITYTILE
360
11
  3
REFLECTIONTILE
360
12
  0
DICTIONARY
  5
3B
330
3A
100
AcDbDictionary
280
     1
281
     1
  3
ACAD_ROUNDTRIP_2008_TABLESTYLE_CELLSTYLEMAP
360
A8
  3
ACAD_XREC_ROUNDTRIP
360
B3
  0
XRECORD
  5
B2
102
{ACAD_REACTORS
330
B1
102
}
330
B1
100
AcDbXrecord
280
     1
102
MATERIAL
148
0.0
149
0.0
149
0.0
 93
        0
 94
       63
282
     0
 72
     1
 77
     1
171
     1
175
     1
179
     1
273
     0
  0
XRECORD
  5
B0
102
{ACAD_REACTORS
330
AF
102
}
330
AF
100
AcDbXrecord
280
     1
102
MATERIAL
148
0.0
149
0.0
149
0.0
 93
        0
 94
       63
282
     0
 72
     1
 77
     1
171
     1
175
     1
179
     1
273
     0
  0
XRECORD
  5
AA
102
{ACAD_REACTORS
330
E
102
}
330
E
100
AcDbXrecord
280
     1
102
MATERIAL
148
0.0
149
0.0
149
0.0
 93
        0
 94
       63
282
     0
 72
     1
 77
     1
171
     1
175
     1
179
     1
273
     0
  0
XRECORD
  5
F
102
{ACAD_REACTORS
330
E
102
}
330
E
100
AcDbXrecord
280
     1
270
     1
271
     1
  0
XRECORD
  5
10
102
{ACAD_REACTORS
330
E
102
}
330
E
100
AcDbXrecord
280
     1
270
     1
271
     1
  0
XRECORD
  5
11
102
{ACAD_REACTORS
330
E
102
}
330
E
100
AcDbXrecord
280
     1
270
     1
271
     1
  0
XRECORD
  5
12
102
{ACAD_REACTORS
330
E
102
}
330
E
100
AcDbXrecord
280
     1
270
     1
271
     1
  0
ACAD_PROXY_OBJECT
  5
A8
102
{ACAD_REACTORS
330
3B
102
}
330
3B
100
AcDbProxyObject
 90
      499
 91
      509
 95
   983063
 70
     0
 93
     5304
310
40D054060020000020000003200101A000080002A5058000000C100000000000000340FD012E07A17AD46E2B8FCB81E85EB51B8AE3F2E07A17AD46E2B8FCB81E85EB51B8AE3F02B5E8DC0F42B1CFC0AD7A3703D0AC73F419019018000000C1003FBFFFFFE02B5E8DC0F42A9CFD029018000000C1003FBFFFFFE02B5E8DC0F4
310
2A9CFD049018000000C1003FBFFFFFE02B5E8DC0F42A9CFD089018000000C1003FBFFFFFE02B5E8DC0F42A9CFD109018000000C1003FBFFFFFE02B5E8DC0F42A9CFD209018000000C1003FBFFFFFE02B5E8DC0F42A9CFD01405075F5449544C450041501A8000000C800406800020000A9416000000304000AD7A3703D0AC7
310
3F404B81E85EB51B8AE3F2E07A17AD46E2B8FCB81E85EB51B8AE3F2E07A17AD46E2B8FC0AD7A3703D0AC73F02B5E8DC0F42B1CFD0640640600000030400FEFFFFFF80AD7A3703D0AA73F40A40600000030400FEFFFFFF80AD7A3703D0AA73F41240600000030400FEFFFFFF80AD7A3703D0AA73F42240600000030400FEFFF
310
FFF80AD7A3703D0AA73F44240600000030400FEFFFFFF80AD7A3703D0AA73F48240600000030400FEFFFFFF80AD7A3703D0AA73F409014217D2115051115480105406A0000003200101A000080002A5028000000C10002B5E8DC0F42B1CFD012E07A17AD46E2B8FCB81E85EB51B8AE3F2E07A17AD46E2B8FCB81E85EB51B8A
310
E3F02B5E8DC0F42B1CFC0AD7A3703D0AC73F419019018000000C1003FBFFFFFE02B5E8DC0F42A9CFD029018000000C1003FBFFFFFE02B5E8DC0F42A9CFD049018000000C1003FBFFFFFE02B5E8DC0F42A9CFD089018000000C1003FBFFFFFE02B5E8DC0F42A9CFD109018000000C1003FBFFFFFE02B5E8DC0F42A9CFD20901
310
8000000C1003FBFFFFFE02B5E8DC0F42A9CFD03409065F4441544100
340
22
340
0
340
0
340
0
340
0
340
0
340
0
340
22
340
0
340
0
340
0
340
0
340
0
340
0
340
22
340
0
340
0
340
0
340
0
340
0
340
0
 94
        0
  0
XRECORD
  5
B3
102
{ACAD_REACTORS
330
3B
102
}
330
3B
100
AcDbXrecord
280
     1
102
ACAD_ROUNDTRIP_PRE2007_TABLESTYLE
 90
      512
 91
        0
  1

 92
      512
 93
        0
  2

 94
      512
 95
        0
  3

  0
ENDSEC
  0
EOF
